Lonely Starlight (Tabs/chords)

21 February 2014 No comments
Intro (13 eighths notes!)
   D                           D           A/D
E|---------------------------|---------------------0-----|
B|---------------------------|-3-----------2-------2-----|
G|---------------------------|-2-----------2-------------|
D|-0-0-0-0-0-0-0-0-0-0-0-0-0-|-0-0-0-0-0-0-0-0-0-0-0-0-0-|
A|---------------------------|---------------------------|
E|---------------------------|---------------------------|x2

The main theme: (All with D root)
   D     A     A   D   G A     G     Dm      C     Dm
E|---------------------------|---------10----8-----------|
B|-3-----2-----5---7---3~5---|-8-----10--10----8---------|
G|-2-----2-----6---7---4~6---|-7-----10----10----9-------|
D|-0---0-----0---0---0-----0-|-----0--------------(7)----|
A|---------------------------|----------------------(7)--|
E|---------------------------|---------------------------|

   Dm    E     G   D   C D     Ab    G       Bm    D
E|-10----------7-------------|-------------5~7-----5-----|
B|-10----9-----8---7---8~10--|-4-----3---3-----7-----7---|
G|-------9---------7---9~11--|-5-----4-4---------7-----7-|
D|-----0-----0---0---0-----0-|-----0---------------------|
A|---------------------------|---------------------------|
E|---------------------------|---------------------------|

   D      A/D              D     A/D
A thunderhead of doom enshrouds
     D/F#    G               Asus4 A 
The faraway land they left behind
     D        A/D       D    A/D
On ships, prepared and set
   D/F#     G                   Asus4 A 
To roam, unknowing what they'll find

        Bm          A/B  
Through currents of mystery
   G       F#m
Hegira to relieve their plight
Bm       A/B 
  Every span they travel
 G                  F#m
Holding hands with lonely starlight

      D           A/D          D     A/D
The youthful and seasoned émigrés
   D/F#          G                Asus4 A 
In vessels constructed with great skill
  D        A/D        D     A/D
Geometric rigor to secure
   D/F#        G                      Asus4   F#m 
A promise and purpose which they all would fulfill

      Bm            A/B  
In three fleets of seven, while
 G           F#m
Tethered to each other tight
Bm    A/B  
  Any turn they travel
 G            F#m
Guided on by lonely starlight

 Dm              Am/D Am7/D 
Home was laid to waste
 Bb               Am
Dissension and decay
 Dm           Am/D Am7/D 
Looking to survive
       Bb            Am
They chose to sail away

To be continued...

Leave a comment!

Comment below, or get a trackback url to use on your own site. You can also subscribe to the comments with RSS.

Please be kind, relevant to the subject and no spamming. Thanks.

You can use these tags:
<a href="" title=""> <abbr title=""> <acronym title=""> <b> <blockquote cite=""> <cite> <code> <del datetime=""> <em> <i> <q cite=""> <strike> <strong>

This blog is using Gravatar weblog. To use your own avatar, register at: Gravatar.