The Valentine’s Medley (Tabs)

12 February 2012 14 comments
1. Kiss Me (Six Pence None The Richer)

kiss me out of the bearded barley
Nightly, beside the green, green grass
Swing, swing, swing the spinning step
you'll wear those shoes and I will wear that dress

Repeat lots of times: (And end with a D chord, same rhythm.)
   A                                  Amaj7
E|-0---0---0-----0---0-0---0-----0|-0-0-0---0-----0---0-0---0---0-0|
B|-2---2---2-----2---2-2---2-----2|-2-2-2---2-----2---2-2---2---2-2|
G|-2---2---2-----2---2-2---2-----2|-2-1-1---1-----1---1-1---1---1-1|
D|-2---2---2-----2---2-2---2-----2|-2-2-2---2-----2---2-2---2---2-2|
A|-0---0---0-----0---0-0---0-----0|-0-0-0---0-----0---0-0---0---0-0|
E|--------------------------------|--------------------------------|

   A7                                 Amaj7
E|-0---0---0-----0---0-0---0---0-0|-0-0-0---0-----0---0-0---0---0-0|
B|-2---2---2-----2---2-2---2---2-2|-2-2-2---2-----2---2-2---2---2-2|
G|-0---0---0-----0---0-0---0---0-0|-0-1-1---1-----1---1-1---1---1-1|
D|-2---2---2-----2---2-2---2---2-2|-2-2-2---2-----2---2-2---2---2-2|
A|-0---0---0-----0---0-0---0---0-0|-0-0-0---0-----0---0-0---0---0-0|
E|--------------------------------|--------------------------------|

2. I'd Do Anything For Love (Meat Loaf)

'Cause I'd do anything for love
I'd run right into hell and back
And I would do anything for love
I'll never lie to you and that's a fact

   G     C       D       D7        G6          D   C
E|-------------------------------|---------------------------------|
B|-0-----1---0---3~------1-1p0---|---0---0-----3---1---------0-1---|
G|-----0---------2~------2-----2-|-2---------2-2---0-----0-2---0---|
D|---0-----2---2-0~----0---------|-----0---0---0-------2-----------|
A|-------3-----------------------|-----------------3---------------|
E|-3-----------------------------|-3-------------------------------|

   G     C       D       D7        G6          A
E|-------------------------------|-----------------|
B|-0-----1---0---3~------1-1p0---|---0---0-----2---|
G|-----0---------2~------2-----2-|-2---------2-2---|
D|---0-----2---2-0~----0---------|-----0---0-----2-|
A|-------3-----------------------|-------------0---|
E|-3-----------------------------|-3---------------|

3. Eternal Flame (The Bangles)

Close your eyes, give me your hand, darling
Do you feel my heart beating, do you understand

   D       Bm      G       A
E|-----2-------2-------3-------0---|
B|-----3-------3-------3-------2---|
G|---2---2---4---4---4---4---2---2-|
D|-0-------------------------------|
A|---------2---------------0-------|
E|-----------------3---------------|<- This part twice

Do you feel the same, or am I only dreaming
Is this burning an eternal flame

   Bm       F#7    Bm      E7        A       F#m      Em7 (play this
E|-----2-------2-------2-------0---|-----0-------2--|---------| chord
B|-----3-------2-------3-------0---|-----2-------3--|-----3---| 4 times)
G|---4---4---3-------4---4---1---1-|---2---2---4---4|-----1---|
D|---------------2-----------------|----------------|---2---2-|
A|-2---------------2---------------|-0--------------|---------|
E|---------2---------------0-------|---------2------|-0-------|

4. Hey Delilah (Plain White T's)

Hey there Delilah, don’t you worry about the distance
I’m right there if you get lonely, give this song another listen

   D                 F#m
E|---2---2---2---2-|---2---2---2---2---|
B|---3---3---3---3-|---2---2---2---2---|
G|---2---2---2---2-|---2---2---2---2---|
D|-0---0---0---0---|-4---4---4---4-----|
A|-----------------|-------------------|
E|-----------------|-------------------| <- play this thing twice

Close your eyes, listen to my voice it’s my disguise
I’m by your side

   Bm          A     G       A         Bm                A
E|-----------------|-----------------|-----------------|------------------|
B|---3---3---3---2-|---3---3---2---2-|---3---3---3---3-|---2---2----2---2-|
G|---4---4---4---2-|---0---0---2---2-|---4---4---4---4-|---2---2----2---2-|
D|---4---4---4---2-|---0---0---2---2-|---4---4---4---4-|---2---2----2---2-|
A|-2---2---2---0---|---------0---0---|-2---2---2---2---|-0---0---0---0----|
E|-----------------|-3---3-----------|-----------------|------------------|

5. Do You Wanna Date My Avatar (The Guild)

(or) Do you wanna date my avatar? He's a star
And he's hotter than reality by far
Wanna date my avatar?

   Am      G       C                 F                       Dm
E|-----0-------3-------0-------0---|-----1-------1-------1-------1---|
B|-----1-------3-------1-------1---|-----1-------1-------1-------3---|
G|---2---2---0---0---0---0---0---0-|---2---2---2---2---2---2---2---2-|
D|---------------------------------|-------------------------0-------|
A|-0---------------3-------3-------|---------------------------------|
E|---------3-----------------------|-1-------1-------1---------------|

   Am      G       C                 F               E       E7
E|-----0-------3-------0-------0---|-----1-------1-------------------|
B|-----1-------3-------1-------1---|-----1-------1---0---0---3-------|
G|---2---2---0---0---0---0---0---0-|---2---2---2---2-1---1---1-------|
D|---------------------------------|-----------------2---2---2-------|
A|-0---------------3-------3-------|---------------------------------|
E|---------3-----------------------|-1-------1-------0---0---0-------|

6. Your Song (Elton John)

It's a little bit funny this feeling inside
I'm not one of those who can easily hide
I don't have much money but boy if I did
I'd buy a big house where we both could live

   D       Gmaj7   A       F#m       Bm      Bm/A    Bm/G#   G
E|-----2-------2-------0-----------|---------------------------------|
B|-----3-------0-------2-------2---|-----3-------3-------3-------3---|
G|---2---2---0---0---2---2-----2---|-----4-------4-------4-------0---|
D|-0-------------------------4---4-|---4---4---4---4---4---4---0---0-|
A|-----------------0---------------|-2-------0-----------------------|
E|---------3---------------2-------|-----------------4-------3-------|

   D       A        F#7    Bm        D       Em7     G        A
E|-----2-------0-------2-------2---|-----2-----------------------------|
B|-----3-------2-------2-------3---|----3-3--3--3--3------3---2----2---|
G|---2---2---2---2---3---3---4---4-|---2---2--0--0--0----0-0-----2--2--|
D|-0-------------------------------|-0------0--2--2-----0---0-----2--2-|
A|---------0---------------2-------|--------------------------0--------|
E|------------------2--------------|---------0-------3-------3---------|

7. Can You Feel The Love Tonight (Elton John)

And can you feel the love tonight
It is where we are
It's enough for this wide-eyed wanderer
That we got this far

   G        D/F#    Em      C           G       C  C#dim D   
E|-----3--------2-------0-------------|-----3-------0-------2~-0h2--------|
B|----3-3-------3-3----0-0-------0h1--|-----3-3-1-----2-----3~----3-2h3---|
G|---0---0----2----2--0---0-----0---0-|-----0-----0-------2--------2---2--|
D|-----------------------------2-----2|---0-------------0-----------------|
A|--------------------------3---------|---------3---4---------------------|
E|-3------0h2-------0-----------------|-3---------------------------------|

   C       G/B     Em   D   C         Am G/B  C  C#dim D 
E|-----0-------3---0----2---0-----0-|-0---3---0---0----2-----2-|
B|-----1--------3---0----3---1---1--|--1---3---1---2----3--3---|
G|---0---0-------0---0----2---0-0---|---2---0---0---0----2-----|
D|------------0-------2-0--0---2----|----2---0---2---2-0--0----|
A|-3--------2---------------3-------|-0---2---3---4------------|
E|-----------------0----------------|--------------------------|

8. Heaven (Bryan Adams)

Baby you're all that I want when you're lyin' here in my arms
I'm findin' it hard to believe we're in heaven

   C    D    Em      G       C          C    D    Em       D
E|-0----2----0---0---3---3---0---0----|-0----2----0---0----2---2----|
B|--1----3----0---0---3---3---1---1---|--1----3----0---0----3---3---|
G|---0----2----0---0---0---0---0---0--|---0----2----0---0----2---2--|
D|----2-0--0----2---2---0---0---2---2-|----2-0--0----2---2-0--0---0-|
A|-3-------------------------3--------|-3---------------------------|
E|-----------0-------3----------------|-----------0-----------------|

9. Time After Time (Cyndi Lauper)

If you're lost you can look and you will find me
Time after time
If you fall I will catch you, I'll be waiting
Time after time

   C       Dm       Bb  C   F
E|-0---0----1---1---1---0---1---1----|
B|--1---1----3---3---3---1---1---1---|
G|---0---0----2---2---3---0---2---2--|
D|----2---2-0--0---0---3---2---3---3-|
A|-3---3------------1---3------------|
E|--------------------------1--------| <- Played it twice

10. 500 Miles (The Proclaimers)

But I would walk fivehundred miles
And I would walk fivehundred more
Just to be the man who walked a thousand miles
To fall down at your door

   F                               Bb              C
E|-1---1---1---1---1---1---1---1-|-1---1---1---1---0---0---0---0-|
B|-1---1---1---1---1---1---1---1-|-3---3---3---3---1---1---1---1-|
G|-2---2---2---2---2---2---2---2-|-3---3---3---3---0---0---0---0-|
D|-------------------------------|-------------------------------|
A|-------------------------------|-1---1---1---1---3---3---3---3-|
E|-1---1---1---1---1---1---1---1-|-------------------------------|<-Twice

11. Nothing's Gonna Change My Love For You (Glenn Medeiros)

(And) nothing´s gonna change my love for you 
You ought to know by now how much I love you 
The world may change my whole life through
But nothing's gonna change my love for you

   C       F       G       E          Am       D7      F       G
E|-0---0---1---1---3---3---0---0----|-0---0----2---2---1---1---3---3----|
B|--1---1---1---1---3---3---0---0---|--1---1----1---1---1---1---3---3---|
G|---0---0---2---2---0---0---1---1--|---2---2----2---2---2---2---0---0--|
D|----2---2---3---3---0---0---2---2-|----2---2-0--0---0---3---3---0---0-|
A|-3--------------------------------|-----------------------------------|
E|---------1-------3-------0--------|-0----------------1-------3--------|

12. I'm Yours (Jason Mraz)

('Cause) I won't hesitate no more, no more
It cannot wait, I'm yours

   C                          G
E|----3-3---3-3---3-3---3-3-|----3-3---3-3---3-3---3-3--|
B|----5-5---5-5---5-5---5-5-|----3-3---3-3---3-3---3-3--|
G|----5-5---5-5---5-5---5-5-|----4-4---4-4---4-4---4-4--|
D|--------------------------|---------------------------|
A|-3-3---3-3---3-3---3-3----|---------------------------|
E|--------------------------|-3-3---3-3---3-3---3-3-----|

   Am                         F
E|----5-5---5-5---5-5---5-5-|----1-1---1-1---1-1---1-1--|
B|----5-5---5-5---5-5---5-5-|----1-1---1-1---1-1---1-1--|
G|----5-5---5-5---5-5---5-5-|----2-2---2-2---2-2---2-2--|
D|--------------------------|---------------------------|
A|--------------------------|---------------------------|
E|-5-5---5-5---5-5---5-5----|-1-1---1-1---1-1---1-1-----|

13. All my loving (The Beatles)

Close your eyes and I'll kiss you, tomorrow I'll miss you
Remember I'll always be true
And then while I'm away, I'll write home every day
And I'll send all my loving to you

   Em          A              D           Bm
E|----0-0---0-0---0-0---0-0-|----2-2---2-2---2-2---2-2--|
B|----0-0---0-0---2-2---2-2-|----3-3---3-3---3-3---3-3--|
G|----0-0---0-0---2-2---2-2-|----2-2---2-2---4-4---4-4--|
D|--------------------------|-0-0---0-0-----------------|
A|-------------0-0---0-0----|-------------2-2---2-2-----|
E|-0-0---0-0----------------|---------------------------|

   G           Em             C           A7
E|----3-3---3-3---0-0---0-0-|----0-0---0-0---0-0---0-0--|
B|----3-3---3-3---0-0---0-0-|----1-1---1-1---2-2---2-2--|
G|----0-0---0-0---0-0---0-0-|----0-0---0-0---0-0---0-0--|
D|--------------------------|---------------------------|
A|--------------------------|-3-3---3-3---0-0---0-0-----|
E|-3-3---3-3---0-0---0-0----|---------------------------|

Repeat the first one, then go into this one:
   G           A              D
E|----3-3---3-3---0-0---0-0-|----2-2---2-2--|
B|----3-3---3-3---2-2---2-2-|----3-3---3-3--|
G|----0-0---0-0---2-2---2-2-|----2-2---2-2--|
D|--------------------------|---------------|
A|-------------0-0---0-0----|-0-0---0-0-----|
E|-3-3---3-3----------------|---------------|

14. Love Me Tender (Elvis Presley)

Love me tender, love me true, all my dreams fulfill
For, my darlin', I love you and I always will

   D  F#7/C# Bm D7/A G   Gm  D   D/A D   B7  E   E7  A   A7  D
E|---2---2---2---2---3---3---2---2-|---2---2---0---0---0---0--2---2---|
B|---3---2---3---1---3---3---3---3-|---3---4---0---3---2---2---3---3--|
G|---2---3---4---2---4---3---2---2-|---2---2---1---1---2---0----2---2-|
D|-0-----2---4---0---5---5-0-------|-0-----4---2---2---2-2---0--------|
A|-----4---2---0-----5---5-----0---|-----2-----2-2---0-----------0----|
E|-----------------3---3-----------|---------0------------------------|

15. I Was Made For Lovin' You (Kiss)

('Cause) I was made for lovin' you baby
You were made for lovin' me
And I can't get enough of you baby
Can you get enough of me?

   F#m             Bm      E
E|---2-------2-------2-----0-------|
B|-----2-------2-------3-----0-----|
G|-------2-------2-------4-----1---|
D|-------------------------------2-|
A|-----------------2---------------|
E|-2-------2---------------0-------|<-Played twice

16. My Heart Will Go On (Celine Dion)

Every night in my dreams
I see you, I feel you
That is how I know you, go on

   Asus2   Esus4   Dsus2   Asus2 Esus4
E|---0---0---0---0---0---0---0---0-|----0---0---0---0---0---0-|
B|--0---0---0---0---0---0---0---0--|--0---0---0---0---0---0---|
G|-2---2---2---2---2---2---2---2---|-2---2---2---2---2---2----|
D|-----------------0---------------|-----------------0--------|
A|-0-----------------------0-------|-0------------------------|
E|---------0-------------------0---|---------0----------------|

17. I Don't Wanna Miss A Thing (Aerosmith)

I could stay awake just to hear you breathing
Watch you smile while you are sleeping
While you're far away dreaming
I could spend my life in this sweet surrender
I could stay lost in this moment forever
Every moment spent with you is a moment I treasure

   D        A/C#   Bm7               G9      D/F#    Em
E|---------------------------------|---------------------------------|
B|---0---0---0---0---0---0---0---0-|---0---0---0---0---0---0---0---0-|
G|--2---2---2---2---2---2---2---2--|--2---2---2---2---0---0---0---0--|
D|-4---4---2---2---4---4---4---4---|-5---5---4---4---2---2---2---2---|
A|-5-------4-------2---------------|---------------------------------|
E|---------------------------------|-3-------2-------0---------------|<-Played twice

   F#m7    G       Asus4   A
E|-----------------0---0---0-0-0-0-|
B|-2--2--2-3--3--3-3---3---2-2-2-2-|
G|--2--2--2-4--4-4-2---2---2-2-2-2-|
D|---4--4----5--5--2---2-----------|
A|-----------------0---0---0-0-0-0-|
E|-2-------3-----------------------|

18. To Be With You (Mr. Big)

('cause) I'm the one who wants to be with you
Deep inside I hope you'll feel it too
Waited on a line of greens and blues
Just to be the next to be with you

   D       G       A        D
E|-----2-------3-------0-------2---|
B|-----3-------3-------2-------3---|
G|---2---2---0---0---2---2---2---2-|
D|-0-----------------------0-------|
A|-----------------0---------------|
E|---------3-----------------------|<-Played four times

19. Love Is All Around (Wet Wet Wet)

I feel it in my fingers
I feel it in my toes
Love is all around me
And so the feeling grows

   Asus2   Bm      D       E         Asus2      Bm      D           E
E|---------------------------------|----------------------------------------|
B|-----0---------3---3-3-2-0-----2-|---2-0h2p0--------3---3-3-2h3p2-0-------|
G|-------2-4---4-----2-----1-2-1---|-----2----2-4---4-----2---------1-2-1---|
D|---2-------4-----0---------------|---2----------4-----0-----------------2-|
A|-0-------2-----------------------|-0----------2---------------------------|
E|-------------------------0-------|--------------------------------0-------|<-Repeat

20. I Will Always Love You (Whitney Houston)

And I will always love you
   A       F#m        D         E
E|---------------------2-----------|
B|-----2-------2-------3-------0---|
G|-----2-------2-----2---------1---|
D|---2-------4-----0-----0---2-----|
A|-0-------------------------------|
E|-------4-2-----0---------0-----0-|<-Played twice

21. The Reason (Hoobastank)

And I just want you to know
I've found a reason for me
To change who I used to be
A reason to start over new
and the reason is you

   A               F#m               D               E               Aadd9
E|---0---0---0---0---2---2---2---2-|---2---2---2---2---0---0--0~---|-(12)----|
B|---2---2---2---2---2---2---2---2-|---3---3---3---3---0---0--0~---|-10------|
G|--2-2-2-2-2-2-2-2-2-2-2-2-2-2-2-2|--2-2-2-2-2-2-2-2-1-1-1-1-1~---|-9-------|
D|-----2-------2-------------------|-0-------0---------------2~----|-9-------|
A|-0-------0-----------4-------4---|-----0-------0-------2---------|-0-------|
E|-----------------2-------2-------|-----------------0-------------|---------|

THE END

14 comments »

  • isabell said:

    Nice tabbed :)

  • Slaiyen13 said:

    great! thanks !

  • Lai Thai Photoblog said:

    I just watched your video, you are awesome entertainer.

  • adi said:

    Great medley pal, thanks for putting up the tabs…
    your awsome, keep rocking my friend…..

  • sasha said:

    Big thanks from Russia! :)

  • Dylan said:

    Merci beaucoup pour cette tab !

    Et super représentation, Bravo !

  • Razvan said:

    Great medley. Thanks for the tab!I wish you all the best in life!

  • Maxi said:

    Fredde, you made my day! I really like your videos, they make me smile non-stop. You’re an awesome musician! ;D

  • blaxpo said:

    Can you upload the chords to the Christmas medley?

  • FreddeGredde (author) said:

    blaxpo: Done! :)

  • Dani Hansen said:

    You, Sir,
    Are my new hero…
    I’m just a begginer…
    I bought this guitar last week,
    And… Then I heard you & said:
    Someday I Will Play Like Him :3
    & I trust I will… Someday =$
    Thanks, man, thanks a lot :3
    You inspire me =$

  • Someguy said:

    Going to Play this to my girlfriend in two days, wish me luck!

  • FreddeGredde (author) said:

    Good luck! :)

  • Jessie Vesco said:

    WOW. You are such an amazing entertainer, and guitar player. Ive seen all of your youtube videos several times!!! Youre not only an amazing musician, but youre really good looking too. ;) I also love how you include the music to everything you play! That’s my favorite part. Ive been playing guitar for two years, but Im not nearly as good as you! I wanna be though. Someday I will play as amazingly as you do. Thanks for making a difference in the world of music. Don’t ever stop making music. you re an inspiration to me and others. I can see how much fun you have when youre playing an instrument or singin too.

Leave a comment!

Comment below, or get a trackback url to use on your own site. You can also subscribe to the comments with RSS.

Please be kind, relevant to the subject and no spamming. Thanks.

You can use these tags:
<a href="" title=""> <abbr title=""> <acronym title=""> <b> <blockquote cite=""> <cite> <code> <del datetime=""> <em> <i> <q cite=""> <strike> <strong>

This blog is using Gravatar weblog. To use your own avatar, register at: Gravatar.