A Classical Fairytale (Tabs)

14 July 2014 2 comments
0:00-0:20 Part 1: The Fifth Symphony (Ludwig Van Beethoven)

  long time ago, far far away~
E|--------------------------|
B|--------------------------|
G|-------6~-----8-8-8-5~----|
D|-3-3-3--------------------|
A|-------6~-----8-8-8-5~----|
E|-3-3-3--------------------|

   there was a boy, his close were torn, a frail physique
                 under a bridge nothing to eat, week after week      no family
   Cm                                      Ddim                      G
E|---------------------------------------|-----------1-1-1-----------3-3---|
B|-----------------4-4-4-----------------|-----------3-3-3-3-------------6-|
G|-5-5-5---5-5-5-5-5-5-5-5---------5-5-5-|---1-1-1-0-------4---------------|
D|-5-5-5---6-6-6-5-------5---------5-5-5-|-0-0-0-0-0-------0-0-0-0-0-------|
A|-------3-----------------3-3-3-3-------|---------------------------------|
E|---------------------------------------|---------------------------3-3-3-|

       no luxury, lost from soci-  e-  ty
   Cm      G       Cm      G         Cm  G#  G
E|---------3-3-3-----------3-3-3---|---------3---------------|
B|-4---4-6-------6-4---4-6-------6-|-4-------3---------------|
G|---5-5-5-4-4-4-4---5-5-5-4-4-4-4-|-5---5---4---------------|
D|---------------------------------|-5---6---5-----5---5---5-|
A|-3---------------3---------------|-3---3---5---5---5---5---|
E|---------3-3-3-3---------3-3-3-3-|-----4---3---------------|


0:20-0:52 Part 2: Dance of the Swans (Pyotr Ilyich Tchaikovsky)

   one day an old lady walked by, bent nose crooked teeth and a dead eye
   Dm
E|-------------------------------|-------------------------5-----|
B|-----6---6---6---6----5h68---6-|-5---8---8---8---8----6h8----8-|
G|-------------------------------|-------------------------------|
D|-----7-------7-------7-------7-|-----7-------7-------7-------7-|
A|-5-------5-------5-------5-----|-5-------5-------5-------5-----|
E|-------------------------------|-------------------------------|

   asking if he'd share...         anything to spare...
E|-----5---10--9---5-------------|-----5---10--9---5-------------|
B|-6-----------------------------|-6-----------------------------|
G|-------------------------------|-------------------------------|
D|-----7-------7-------7-------7-|-----7-------7-------7-------7-|
A|-5-------5-------5-------5-----|-5-------5-------5-------5-----|
E|-------------------------------|-------------------------------|

   and even though he only had a scrawny little fish
               in his old net, no food could he have bought
                     but without a second thought, he gave her what he'd
                  Gm Cm/D# Gm  D                F
E|--------------------------------|---------------1---1---1---1---1-|
B|-------4---3---3-3---4---3---2--|---3---2---1---1---1-----1-1---1-|
G|---7---5---2---2-3---5---3---3--|---3---3---0---2---2-2-2---2---2-|
D|---7---------0-4-5---5-------0--|-----------------3-----------3---|
A|-5-------------------6---5------|-------------3-------------------|
E|-5---3---2-------3--------------|-3---1---0-----------------------|

   caught then without warning she transformed herself into a witch
                 and said that though she's usually mean
                          she'd give him something great; power to manipulate!
E|--------------------------------|---------------1-------0---1---0-----1-|
B|-------3---3---3-3---4---3---7--|---3---2---1---1---3---3---3---2-3---3-|
G|-5-6-------------3---5---3---7--|---3---3---0---2---2---0---2---0-2---2-|
D|-5-5---4---4---4-------------7--|-------------------3-------------0---0-|
A|-7-6-5---0-----------3---5---5--|-------------3-------1---0---0---------|
E|-------------2---3--------------|-3---1---0-------1---------------------|


0:52-1:14 Part 3: Spring (Antonio Vivaldi)

   all hope returned to our boy
   and his heart was leaping with joy
   his new power he couldn't wait to employ
   G a looong time      then fast: G G/B Cadd9 D
E|-3-------------------------------3---3---3---2--|
B|-3-------------------------------3---3---3---3--|
G|-0-------------------------------0---0---0---2--|
D|-0-------------------------------0---0---2---0--|
A|-2-------------------------------2---2---3------|
E|-3-------------------------------3--------------|

   determined to find a way
   to a new home where he could stay
   he departed his bridge that day
   G again but softer.. then fast: G  Em7 G/D  D
E|-3-------------------------------3---3---3---2--|
B|-3-------------------------------3---3---3---3--|
G|-0-------------------------------0---0---0---2--|
D|-0-------------------------------0---2---2---0--|
A|-2-------------------------------2-------3------|
E|-3-------------------------------3--------------|

   he traveled through towns and forests
   no worries about surviving, but striving
   to find his own home some day
   G loud again!                   D  G   D  G
E|-3-------------------------------2--3---2--3-|
B|-3-------------------------------3--3---3--3-|
G|-0-------------------------------2--0---2--0-|
D|-0-------------------------------0--0---0--0-|
A|-2----------------------------------2------2-|
E|-3----------------------------------3------3-|


1:14-1:44 Part 4: In the Hall of the Mountain King (Edvard Grieg)

   meanwhile, at the castle white the old hag met the king
   asking if he possibly could spare a chicken wing
   but the royal family didn't have much to share
   "giving food to just one beggar would be quite unfair"
   Bm                      D
E|---------------3-----------2---2--|
B|---3---3---3---5---3---3---3---3--|  <-- play this twice
G|---4---4---4---4---4---4---2---2--|
D|---4---4---3-------4---4-0---0----|
A|-2---2---2---2---2---2----------0-|
E|----------------------------------|

   at that moment she returned into her primal form
   sparks and lightning flew while she brewed up a storm
   "for your selfish act I have placed a mark on your heir
   condemning her to an eternal nightmare!"
   F#      D   F#
E|---2---2---2---2-|
B|---2---2---3---2-|
G|---3---3---2---3-|  <-- and then this 4 times!
D|---------0-------|
A|-----------------|
E|-2---2-------2---|


1:44-1:56 Part 5: Carillon' from L'arlesienne (Bizet)

   life carrying on, the boy had settled down within a little town
   money and good health, but still he couldn't help but feeling oddly down
   F#                        F# <-3 times, then: F#  B   C#  F# C#/G# C#
E|-------------------------|-------------|     |-----------------------|
B|-------------------------|---2-2---2-2-|     |-2---4---6---2---6---6-|
G|-3---1-3---1-3---1-3---1-|---3-3---3-3-|     |-3---4---6---3---6---6-|
D|---4-----4-----4-----4---|---4-4---4-4-|     |-4---4---6---4---6---6-|
A|-------------------------|-------------|     |-----2---4-----------4-|
E|-2-----------------------|-2-----2-----|     |-2-----------2---4-----|


1:56-2:26 Part 6: The Nutcracker (Pyotr Ilyich Tchaikovsky)

   marching up towards the castle white
   out of a decision so outright
   F#        Bmaj7   A#m F# D#5
E|-------------------1----------|
B|-2---------4---4---2---2---4--| <- twice
G|-3---3-3-3-3---3---3---3---3--|
D|-4---4-4-4-4---4---3---4---1--|
A|-----4-4-4-2---2---1----------|
E|-2---2-2-2-------------2------|

in from the gates and through the halls with flags and portraits on the walls
  to get the princess so divine oh would not that be fine!
E|---------------------------------|-------------------------4---9--|
B|-4---4---4---4---2---2---2---2---|-0---0-----------7-4-4---6---9--|
G|---------------------------------|---------3---3-----------6---10-|
D|-------------------------------1-|-----------0-1-4---------6---11-|
A|-------1-2-3-4-----------0-1-2---|---0-1-2-3-------------3-4---11-|
E|-4-3-4---------1-2-1-2-4---------|-4---------------4-6-7-------9--|

   he met with the king in the throne room
   asking to become his daughter's groom
   F#        Bmaj7   A#m F# D#5
E|-------------------1----------|
B|-2---------4---4---2---2---4--| <- twice again
G|-3---3-3-3-3---3---3---3---3--|
D|-4---4-4-4-4---4---3---4---1--|
A|-----4-4-4-2---2---1----------|
E|-2---2-2-2-------------2------|

 but then the king seemed very blue, "if wedding plans you'd have go through
   this warning I should give to you, my daughter's lost from view!"
E|---------------------------------|---------1---1---------------6-|
B|-4---4---4---4---6---6---6---6---|-4---4---------------0---3---6-|
G|-----------------6---6---6---6---|-4---4-----------3-------3---7-|
D|---------------------------------|-----------------1-------3---8-|
A|-------1-2-3-4-2-------3-4-5-6-4-|-2-1---2-4-2-1-4-------0-1---8-|
E|-4-3-4-----------6-5-6-----------|-----4-------------2-4-------6-|


2:26-2:46 Part 7: Ride of the Valkyries (Richard Wagner)

   darkening distress surrounding the princess
   sleeping with nightmares, forever doomed
   manipulation in that occasion, really is useless, what can he do?   
   Bm             D/A   D                       F#m   F#
E|---2-2---2-2------5-5---5-5---5-5---5-5---5-5---2-2---2-2---2-2-|
B|---3-3---3-3------7-7---7-7---7-7---7-7---7-7---2-2---2-2---2-2-|
G|---4-4---4-4------7-7---7-7---7-7---7-7---7-7---2-2---3-3---3-3-|
D|---4-4---4-4------7-7---7-7---7-7---7-7---7-7---------4-4---4-4-|
A|-2-----2-----2--------5-----5-----5-----5-----------------------|
E|---------------5------------------------------2-----2-----2-----|


2:46-3:20 Part 8: Funeral March (Frédéric Chopin)

   sad-ness inside him was hard for him to   bear
   Bm    G     Bm    G     Bm2   G     Bm    G
E|-------------------------------------------------|
B|-------------------3---2-2-----------------------|
G|-4-----4---4-4-----4-----4---4-4---4-4-----4-----|
D|-4-----5---5-4-----5-----4-----5-----4-----5-----|
A|-2-----------2-----------2-----------2-----------|
E|-------3-----------3-----------3-----------3-----|

   she looked so fragile, she couldn't help but stare
   Bm    G     Bm    Gmaj7 Bm2   G     Bm    G
E|-------------------2---0-0-----------------------|
B|-3-----3---3-3-----3---2-2---3-3---3-3-----3-----|
G|-4-----4---4-4-----4-----------4---4-4-----4-----|
D|-4-----5---5-4-----------------5-----4-----5-----|
A|-2-----------2-----------2-----------2-----------|
E|-------3-----------3-----------3-----------3-----|

   could this be the end,  he could not pretend
   Bm    G     Bm    G     Bm    G     Bm    G
E|-7-----3-----2-----3-----7-----3-----2-----3-----|
B|-7--10-3---7-3-----3-----7--10-3---7-3-----3-----|
G|-7-----4-----4-----4-----7-----4-----4-----4-----|
D|-------5-----4-----------------5-----4-----------|
A|-------------2-----------------------2-----------|
E|-7-----3-----------3-----7-----3-----------3-----|

   to    ever  be    happy without love inside
   Bm    G     Bm    G     Bm2   G     Bm    G
E|-------------------------------------------------|
B|-------------------3---2-2-----------------------|
G|-4-----4---4-4-----4-----4---4-4---4-4-----4-----|
D|-4-----5---5-4-----5-----4-----5-----4-----5-----|
A|-2-----------2-----------2-----------2-----------|
E|-------3-----------3-----------3-----------3-----|


3:20-3:40 Part 9: William Tell Overture (Gioachino Rossini)

   getting up getting up for it's not too late
                     when it's true love at stake then it cannot wait 
   B                                                      F#
E|----------------------------------------------------------------------|
B|--------------------------2---4---------------------------------------|
G|-----4--------4-------4---4---4-------4-------4---------3---3---3-----|
D|-----4--------4-------4---------------4-------4---------4---4---4-----|
A|-2-2-----2-2------2-2-------------2-2-----2-2------2-2--4---4---4-----|
E|--------------------------------------------------------2---2---2-----|

   and there must be a way to reverse this curse
                                   be a hero and it won't get worse!
   B                                    F#              B
E|--------------------------------------2---2-2-2---2-2-----------------|
B|--------------------------2---4-----4-2---2-2-2---2-2-----4-----------|
G|-----4--------4-------4---4---4---4---3---3-3-3---3-3-4---4---4---4-4-|
D|-----4--------4-------4---------------4-------4-------4---4---4---4-4-|
A|-2-2-----2-2------2-2-----------------4-------4-------2-------2-------|
E|--------------------------------------2-------2-----------------------|

with a horse that he borrowed from the king's stall
                               he left on to face his true fate
   Abm                                                 Dbm Abm
E|---------------------4-------4-------4-------4-------------------|
B|-4---4-4-4---4-4-4---4---4---4---4---4---4---4---4---5---4---4-4-|
G|-4---4-4-4---4-4-4---4---4---4---4---4---4---4---4---6---4---4-4-|
D|-6---6-6-6---6-6-6-------6-------6-------6-------6---6---6---6-6-|
A|-6-------6-------6-----------------------------------------------|
E|-4-------4-------4-----------------------------------------------|

through the gates, over fields and the hills
                        with a greatly increasing heartbeat rate
   Abm                                     Db              F#
E|---------------------4-------4-------4-------------------2-------|
B|-4---4-4-4---4-4-4---4---4---4---4---4---7---6---7---6---2-------|
G|-4---4-4-4---4-4-4---4---4---4---4---4---6---6---6---6---3-------|
D|-6---6-6-6---6-6-6-------6-------6-------6---6---6---6---4-------|
A|-6-------6-------6-----------------------4---------------4-------|
E|-4-------4-------4---------------------------------------2---2-2-|

carried on, carried on, to the forest where the witch
                                  lived and the trees were dead
   Abm                                                 Dbm Abm
E|---------------------4-------4-------4-------4-------------------|
B|-4---4-4-4---4-4-4---4---4---4---4---4---4---4---4---5---4---4-4-|
G|-4---4-4-4---4-4-4---4---4---4---4---4---4---4---4---6---4---4-4-|
D|-6---6-6-6---6-6-6-------6-------6-------6-------6---6---6---6-6-|
A|-6-------6-------6-----------------------------------------------|
E|-4-------4-------4-----------------------------------------------|

   driven on by the thought of his sleeping love and the battle ahead
   Abm                                     Db      F#
E|---------------------4-------4-------4-----------2-----------|
B|-4---4-4-4---4-4-4---4---4---4---4---4---7---6---2------2----|
G|-4---4-4-4---4-4-4---4---4---4---4---4---6---6---3------3----|
D|-6---6-6-6---6-6-6-------6-------6-------6---6---4------4----|
A|-6-------6-------6-----------------------4-------4------4----|
E|-4-------4-------4-------------------------------2-----------|


3:40-4:10 Part 10: Hungarian Dance No 5 (Johannes Brahms)

   then the witch appeared from the woods
                      "what is it, boy? Our deal seemed so good!
   Bm              Em      Bm      Em      Bm      F#      Bm
E|-----------------------------------------------------------------|
B|---3---3---3---3---0---0---3---3---0---0---3---3---2---2---3---3-|
G|---4---4---4---4---0---0---4---4---0---0---4---4---3---3---4---4-|
D|---4---4---4---4---2---2---4---4---2---2---4---4---4---4---4---4-|
A|-2-------2-----------2---2-----------2---2-----------4---2-------|
E|-----2-------2---0-----------2---0-----------2---2-----------2---|

   I gave you everything that you need - power and the riches and the
             people and a home as well - so what more could there be?" 
   Bm              Em      Bm      G  D/A Em/G D/F# F#     Bm
E|---------------------------------------2---0---2-------------7---|
B|---3---3---3---3---0---0---3---3---3---3---0---3---2---2---3-7---|
G|---4---4---4---4---0---0---4---4---4---2---0---2---3---3---4-7---|
D|---4---4---4---4---2---2---4---4-------------------4---4---4-9---|
A|-2-------2-----------2---2-----------0---------------4---2---9---|
E|-----2-------2---0-----------2---3-------3---2---2-----------7---|

   "my heart yearns for she who's the fairest of them all
                   now you break her curse or I'm gonna make you crawl!"
   B7              Em              A               D
E|---------------------------------------------------2---2---2---2-|
B|---0---0---0---0---0---0---0---0-------------------3---3---3---3-|
G|---2---2---2---2---0---0---0---0---2---2---2---2---2---2---2---2-|
D|-1-------1-------2-------2---0-----2---2---2---2-0-------0-------|
A|-----2-------2-------2-----------4-------4-----------0-------0---|
E|-------------------------------------5-------5-------------------|

   he was told that the only way to remove the spell
                     was to sacrifice yourself to nightmare hell
   F#              G          Bm/D F#            Bm    Em  Bm
E|-------------------------------2-2---------------2---0---2--|
B|---2---2---3---2---3---3---3---3-2---------------3---0---3--|
G|---3---3---4---3---4---4---4---4-3---------------4---0---4--|
D|-------------------5---5---5-0---4---4-6---8-----4---2---4--|
A|-1-------1-----------5-----------4-------------2-----2---2--|
E|-----2-------2---3-------3-------2---2-4---6---------0------|


4:10-4:34 Part 11: Sabre Dance (Aram Khachaturian)

then full of rage the boy attacked her with his sword but he was not a knight
she controlled the fight, with her beams of light, chances seeming slight
so he quickly hid behind the furniture (watch out!) dodge that! (don't doubt!)
as she was throwing spells towards him he picked up a mirror to reflect
her fatal attacks, but they'd misdirect, making giant cracks
in the walls but nowhere near enough to her (too slow!) hopeless (oh no!)

   G DEVIL CHORD
E|-----------------|
B|-----------------|
G|---6---6---6---6-|
D|---5---5---5---5-| <-- repeat possibly 16-17 times.
A|-----5-------5---|
E|-3-------3-------|


4:34-4:58 Part 12: Turkish March (Wolfgang Amadeus Mozart)

   then out of the blue he knew what to do;
                        an idea showing his intentions to be true
by manipulating himself in the mirror he forgot the powers he once knew
           Em                              Bm
E|-2p0---0-3-----------------------------------------------------------|
B|-----4-----0-0-0---0-0-0---0---0---0-0-0---3-3-3---3-3-3---3---3-3---|
G|-----------0-0-0---0-0-0---0---0---0-0-0---4-4-4---4-4-4---4---4-4---|
D|-----------2-2-2---2-2-2---2---2---2-2-2---4-4-4---4-4-4---4---4-4---|
A|-2---------------------------------------2-------2-------2-------2---|
E|---------0-------0-------0---0---0---------------------------2-------|

with his pure and noble little heart, he'd defeat the witch's evil art
her attacks no longer had effect, 'cause her spells he'd easily reflect
   G       D     G       D    Em      B     Em      B
E|--------------------------------------2-----------2----------|
B|---3---3---3-----3---3-3------0---0---4-----0---0-4----------|
G|---0---0---2-----0---0-2------0---0---4-----0---0-4----------|
D|---------0-------------0------2---2---4-----2---2-4----------|
A|-----2-------------2----------------2-------------2----------|
E|-3-------------3------------0---3---------0---3--------------|

   with a lesson learned, to a frog she turned
   then back to the castle though his loving heart burned!
   for there was still no way to rescue her for whom he deeply yearned
   Em                      C7      Em  Am  G  B7/A G   B7  Em   Cmaj7
E|-----------------------------------------------2---------0-----------|
B|---0-0-0---0-0-0---0---0---1-1-1---0---1---0---4-0-0-4-4-0-----0-----|
G|---0-0-0---0-0-0---0---0---3-3-3---0---2---0---2-0-0-2-2-0-----0-----|
D|---2-2-2---2-2-2---2---2---2-2-2-------------------------2-----2-----|
A|-------------------------3-------2---0-------0---2-2-2-2-2-----3-----|
E|-0-------0-------0---0-------------------3---------------------------|


4:58-5:19 Part 13: Moonlight Sonata (Ludwig van Beethoven)

   Out...                              of        his
   Am
E|-------------------------------------0---------0-|
B|---------1-----------1-----------1-----------1---|
G|-----2-----------2-----------2-----------2-------|
D|-2-----------2-----------2-----------2-----------|
A|-0-----------------------------------------------|
E|-------------------------------------------------|

   pure    love...                     he      took her   
   E/G#
E|-0-----------------------------------0---------0-|
B|-----0-----------0-----------0-----------0-------|
G|---------7-----------7-----------7-----------7---|
D|-------------------------------------------------|
A|-------------7-----------7-----------7-----------|
E|-4-----------------------------------------------|

   hand...                 so...
   Am                      Dm
E|-0-----------------------1-------1-----------1---|
B|---------1-----------1---3---3-----------3-------|
G|-----2-----------2-------2-----------2-----------|
D|-2-----------2-----------0-----------------------|
A|-0-----------------------------------------------|
E|-------------------------------------------------|

   she...                  could       wake        up...
   C/G                     G
E|-0-----------------------------------3-----------|
B|---------1-----------1---3-------0-----------0---|
G|-----0-----------0-----------0-----------0-------|
D|-2-----------2-----------3-----------3-----------|
A|-------------------------------------------------|
E|-3-----------------------3-----------------------|


5:19-5:53 Part 14: Air (Johann Sebastian Bach)

                              so the curse mark passed on to the brave boy
   C       C/B     Am7     C/G     Fmaj7   D/F#    Gsus4       Fadd9
E|-0-------0-------0-------0-------0---5-1-----------------------------|
B|-1-------1-------1-------1-------1-------3-1-0-1-1-0h1p0-0-----------|
G|-0-------0-------0-------0-------2-------2---2---0-------0-2-0-----0-|
D|---------------------------------------------0---0-------------------|
A|-3---3---2---2---0---0-----------------------------------------------|
E|-------------------------3---3---1---1---2---2---3-------3---1---1---|

  the princess cried for the sacrifice he'd made to save her from
             all her dark nightmares She took his hand and held it tight
   Em7     Gm/D    A/C#    A       Dm      Dm/C    G
E|-3-----------3-----0---------3-1-1---------0-1---------------1-0-|
B|---------------------0---3-2-----3---3-1-3---3-3---3-----1-0-0-0-|
G|-----3-2-3---3-3-2-----2-2-------2---2---2---2---0---2-0-0-------|
D|-----2-2-0---0-------------------0---0-----------0---------------|
A|-----------------4---4---0---0-----------3-----------------------|
E|-0---0-------------------------------------------3---3---3---3---|


5:53-6:30 Part 15: The Marriage of Figaro (Wolfgang Amadeus Mozart)

                     in this moment, his eyes opened up, 'cause with their...
   A
E|-------------------------------------------------------------------------|
B|-------------------------------------------------------------------------|
G|-2-----------2-----------2-----------2-----------2-----------2-----------|
D|-2-----------2-----------2-----------2-----------2-----------2-----------|
A|-0---0-0-0-0-0---0-0-0-0-0---0-0-0-0-0---0-0-0-0-0---0-0-0-0-0---0-0-0-0-|
E|-------------------------------------------------------------------------|

   hands           thus-       ly intertwined, despite the curse, they're...
   A               E           D   A       E   D   A       E   D
E|-5---5-5-5---5-5-----------------5---5-5---------5---5-5---------|
B|-5---5-5-5---5-5-9---9-9-9---7---5---5-5-9---7---5---5-5-9---7---|
G|-6---6-6-6---6-6-9---9-9-9---7---6---6-6-9---7---6---6-6-9---7---|
D|-7---7-7-7---7-7-9---9-9-9---7---7---7-7-9---7---7---7-7-9---7---|
A|-7---------------7-----------5---7-------7---5---7-------7---5---|
E|-5-------------------------------5---------------5---------------|

   both  awake to finally  meet   today...
   A       D       E       E         A
E|-5---5-5-5---5-5-7---------------|---------------------------------|
B|-5---5-5-7---7-7-9---9-9-0-------|---------------------------------|
G|-6---6-6-7---7-7-9---9-9-1---1-1-|-2-------2-------2-------2-------|
D|-7---7-7-7---7-7-9---9-9-2---2-2-|-2-------2-------2-------2-------|
A|-7-------5-------7-------2---2-2-|-0---0-0-0---0-0-0---0-0-0---0-0-|
E|-5-----------------------0-------|---------------------------------|

   with...                        their... 
   E/A                             A
E|-----------------------------------------------------------------|
B|-0-------0-------0-------3-------2-------2-------2-------2-------|
G|-1-------1-------1-------1-------2-------2-------2-------2-------|
D|-2-------2-------2-------2-------2-------2-------2-------2-------|
A|-0---0-0-0---0-0-0---0-0-0---0-0-0---0-0-0---0-0-0---0-0-0---0-0-|
E|-----------------------------------------------------------------|

   noble           hearts          they    curbed  the     spell
   Asus4                           D       A       D       E
E|---------2-------3-------3-------5-------5-------5-------7-------|
B|-3-------3-------3-------3-------7---7-7-5---5-5-7---7-7-9---9-9-|
G|-2-------2-------2-------2-------7---7-7-6---6-6-7---7-7-9---9-9-|
D|-2-------2-------2-------2-------7---7-7-7---7-7-7---7-7-9---9-9-|
A|-0---0-0-0---0-0-0---0-0-0---0-0-5---5-5-7---7-7-5---5-5-7-------|
E|-----------------------------------------5-----------------------|

   and so...  together...   they'd rule the..  whole land wisely and well!
   A           E   A           E   A           E   A   E   A   E   A
E|-0--------------------------------------------------------------------|
B|-2---2-2-2---0---2---2-2-2---0---2---2-2-2---0---2---0---2---0---2~---|
G|-2---2-2-2---1---2---2-2-2---1---2---2-2-2---1---2---1---2---1---2~---|
D|-2---2-2-2---2---2---2-2-2---2---2---2-2-2---2---2---2---2---2---2~---|
A|-0-----------2---0-----------2---0-----------2---0---2---0---2---0~---|
E|-------------0---------------0---------------0-------0-------0--------|

                                  gor    as    long as they would
                                  hold   their  hands no nightmares     
 (everybody had a jolly time)     F#m    E/G#   A   A   D   E 
E|---------------------|       E|-2------0----------5---5---7--|
B|---------------------|       B|-2------0----------5---7---9--|  <- twice   
G|-2-1-----------------|       G|-2------1------2---6---7---9--|  
D|-----4-2-0-----------|       D|-4-------------2---7---7---9--| 
A|-----------4-2-0-----|       A|-4-------------0---7---5---7--|  
E|-----------------4-0-|       E|-2------4----------5----------|

   would haunt their dreams
   anymore for the rest of their
   lives, so they lived happily         ev- er  aft-er      THE     END
   A                                  A/C# A/E A/C# A       A       A
E|-5---5-5-5---5-5-|                 E|-----0-------5-------5-------5---|
B|-5---6-6-6---6-6-| <- repeat       B|-2---2---2---5-------5-------5---|
G|-6---6-6-6---6-6-|    6.5 times!   G|-2---2---2---6-------6-------6---|
D|-7---7-7-7---7-7-|                 D|-2---2---2---7-------7-------7---|
A|-7-------7-------|                 A|-4-------4---7-------7-------7---|
E|-5-------5-------|                 E|-------------5-------5-------5---|

2 comments »

  • Blaise said:

    This is amazing :)

  • David Eck said:

    beautoful :) love u

Leave a comment!

Comment below, or get a trackback url to use on your own site. You can also subscribe to the comments with RSS.

Please be kind, relevant to the subject and no spamming. Thanks.

You can use these tags:
<a href="" title=""> <abbr title=""> <acronym title=""> <b> <blockquote cite=""> <cite> <code> <del datetime=""> <em> <i> <q cite=""> <strike> <strong>

This blog is using Gravatar weblog. To use your own avatar, register at: Gravatar.