Beside Me (Tabs)

22 October 2009 10 comments
 intro:
|-------0-----------------|-------0-----------------|
|-----6---6-------6-----6-|-----6---6-------6-----6-|
|---5-------5---5-----5---|---5-------5---5-----5---|
|-------------------------|-------------------3-----|
|-5-----------5-----------|-------------------------|
|-------------------5-----|-6-----------6-----------|

|-------0-----------------|-------0-----------------|
|-----6---6-------6-------|-----6---6-------6-----6-|
|---5-------5---5-----5---|---5-------5---5-----5---|
|-------------5-----3-----|-------------------------|
|-3-----------------------|-------------5-----3-----|
|-----------------------3-|-5-----------------------|

|-------0-----------------|-------0-----------------|
|-----6---6-------6-----6-|-----6---6-------6-----6-|
|---5-------5---5-----5---|---5-------5---5-----5---|
|-------------------------|-------------------3-----|
|-5-----------5-----------|-------------------------|
|-------------------5-----|-6-----------6-----------|

|-------0-----------------|-------0-----------------|
|-----6---6-------6-------|-----6---6-------6-----6-|
|---5-------5---5-----5---|---5-------5---5-----5---|
|-------------5-----3---5-|-7-----------5-----3-----|
|-3-----------------------|-------------------------|
|-------------------------|-------------------------|

verse 1:
  Dsus2           F     C/E     Dsus2           G/B   Cadd9
|-------0-----0---------------|-------0---------------------|
|-----3---3-----3-----1-----1-|-----3---3---3---3-----3-----|
|---2-------2-------2-----0---|---2-------2---2---0-----0---|
|-0---------------3-----2-----|-0-------------------0-----2-|
|-----------------------------|-----------------2-----3-----|
|-----------------------------|-----------------------------|

  Dsus2           F     C/E     Dsus2           G/B   Gm/A#
|-------0-----0---------------|-------0---------------------|
|-----3---3-----3-----1-----1-|-----3---3---3---3-----3-----|
|---2-------2-------2-----0---|---2-------2---2---0-----0---|
|-0---------------3-----2-----|-0-------------------0-----0-|
|-----------------------------|-----------------2-----1-----|
|-----------------------------|-----------------------------|

verse 2:
  Gm              Gm/A# Gm/A    Gm              C9    Dm7
|-----------------------------|-----------------------------|
|-----------------------------|-----------------------------|
|---3---5---2---3-----0-----0-|---3---5---2---3-----3-----5-|
|---0---0---0---0---0-----0---|---0---0---0---0---0-----3---|
|-----------------1-----0-----|-----------------3-----5-----|
|-3---3---3---3---------------|-3---3---3---3---------------|

  Gm              Cm9         Dm
|---------------|-------------1-----1-----|
|---------------|-3-----3-------3-----3---|
|---3---5---2---|---0-----0-------2-----2-|
|---0---0---0---|-----1-----1-0-----------|
|---------------|-3-----------------------|
|-3---3---3---3-|-------------------------|

  Fm6         Cm            Cm9         Dm/F
|-3-----3-----4-----4-----|-------------1-----1-----|
|---1-----1-----5-----5---|-3-----3-------3-----3---|
|-----3-----3-----5-----5-|---0-----0-------2-----2-|
|-------------------------|-----1-----1-------------|
|-------------3-----------|-3-----------------------|
|-1-----------------------|-------------5-----------|

  A7                        A7
|-------------------------|-3-----3-----3-----3-----|
|-2-----2-----2-----2-----|---2-----2-----2-----2---|
|---0-----0-----0-----0---|-----0-----0-----0-----0-|
|-----2-----2-----2-----2-|-------------------------|
|-0-----------------------|-0-----------------------|
|-------------------------|-------------------------|

Chorus/Intro again

Instrumental:
  Dm              F     C/E     Dm              G/B   Cadd9
|---1---3---0---1-------------|---1---3---0---1-------------|
|-----3---3---3-------1-----1-|-----3---3---3---3-----3-----|
|-------------------2-----0---|-------------------0-----0---|
|-0---------------3-----2-----|-0-------------------0-----1-|
|-----------------------------|-----------------2-----3-----|
|-----------------------------|-----------------------------|

  Dm              F     C/E     Dm              Cadd9 G/B
|---1---3---0---1-------------|---1---3---0---1-------------|
|-----3---3---3-------1-----1-|-----3---3---3---3-----3-----|
|-------------------2-----0---|-------------------0-----0---|
|-0---------------3-----2-----|-0-------------------1-----0-|
|-----------------------------|-----------------3-----2-----|
|-----------------------------|-----------------------------|

Accordion solo:
  F     C/E        Cadd9 G/B
|-------------0~-|-------------|
|-----1-----1----|-3-----3-----|
|---2-----0------|---0-----0---|
|-3-----2--------|-----1-----0-|
|----------------|-3-----2-----|
|----------------|-------------|x4

Verse 3:
  Gm          Gm/D      Ebmaj7      Gm/D
|-------6-----------6-|-------6-----------6-|
|-----8---8-------8---|-----8---8-------8---|
|---7-------7---7-----|---7-------7---7-----|
|-5-------------------|---------------------|
|-------------5-------|-6-----------5-------|
|---------------------|---------------------|

  Cm          Cm/A      Abmaj7      Fm
|---------------------|---------------------|
|-------4-----------4-|-------4-----------9-|
|-----5---5-------5---|-----5---5-------10--|
|---5-------5---5-----|---5-------5---10----|
|-3-----------0-------|-------------8-------|
|---------------------|--4------------------|

  Ebm          Ebm/A#   Bmaj7      Ebm/A#
|---------------------|---------------------|
|-------7-----------7-|-------7-----------7-|
|-----8---8-------8---|-----8---8-------8---|
|---8-------8---8-----|---8-------8---8-----|
|-6-------------------|---------------------|
|-------------6-------|-7-----------6-------|

  G#m         Em6           B           Bsus2/A
|-------------------------|-------------------------|
|-------4-----2-----2-----|-------4-----2-----2-----|
|-----4---4-----0-----0---|-----4---4-----4-----4---|
|---6-------6-----2-----2-|---4-------4-----4-----4-|
|-------------------------|-2-----------0-----------|
|-4-----------0-----------|-------------------------|x2

Chorus2:
   Heartbeats..      ..away..
E|-------------------|-----------------0-3-2-----|
B|-0-----3-----0-----|-3-----3-----0h3-------3---|
G|---0-----0-----0---|---2-----2---------------2-|
D|-----1-----0-----2-|-----0-----0---------------|
A|-3-----2-----4-----|---------------------------|
E|-------------------|-2-------------------------|

   Walking..   ..empty space..
E|-------------|-------------------------|
B|-3-----0-----|-3-----3-----3-----3-----|
G|---4-----2---|---0-----0-----0-----0---|
D|-----4-----4-|-----2-----2-----2-----2-|
A|-2-----4-----|-----------------------0-|
E|-------------|-0-----------------0-3---|

   Suddenly..        ..peared..
E|-------------------|-----------0-------0-----0-|
B|-0-----3-----0-----|---------3-----3-------3---|
G|---0-----0-----0---|-----0h4-----4---4---4-----|
D|-----1-----0-----2-|---2-----------------------|
A|-3-----2-----4-----|-3-------------------------|
E|-------------------|---------------------------|

   Courage..   ..breath..
E|-------------|-------------------------|
B|-3-----0-----|-1-----1-----1-----1-----|
G|---4-----2---|---2-----2-----2-----2---|
D|-----4-----4-|-----3-----3-----3-----3-|
A|-2-----4-----|-------------------------|
E|-------------|-1-----------------------|

Solo:
Am C Dsus2 x6

To be continued...

10 comments »

  • Ronan LG said:

    Thanks! This is awesome!!
    I’ll definitely take some time to try and play this.. probably on the piano though :)
    Oh, and this is my all time favourite!!

    Nice job, can’t wait for the album

  • Patrick said:

    do you have the tabs for bass ?

  • FreddeGredde (author) said:

    Patrick: No, but you can listen to it here: http://freddegredde.com/randommusic/beside%20me%20bass.mp3

  • Joe said:

    Hey Fredde. You’re an awesome musician and I hope you keep at it. I looked for the tab for this song and couldn’t find it. But I finally did. I hope you go far someday! You can do it. Just keep playing and posting videos on YouTube. You rock man!

  • manuel bello said:

    hey, realy nice progressive alternative song, but do you have guitar pro tabs, is easyer to make a cover with guitar pro tabs

  • FreddeGredde (author) said:

    Manuel: Nope, sorry. But thanks!

  • manuel bello said:

    hey man another question, all the songs of the album are like this one? in turn of tempos, signatures, etc..

  • FreddeGredde (author) said:

    manuel: All songs are very different from each other, I’d say, but there are odd time signatures in all my songs. :)

  • McVries said:

    Hello ! Yesterday I bought your album in order to do a good action in favour to a talented artist. But I’m french and I cannot understand totally the lyrics … so I cannot sing your songs ! If you will do me the favour to send or to publish your lyrics please.

    Thank you ! And as we say : “Bravo !”

  • Ahinara said:

    Hi I was wondering when you would end up the tab I’m so hooked on the song! great job though, I love your music !!!

Leave a comment!

Comment below, or get a trackback url to use on your own site. You can also subscribe to the comments with RSS.

Please be kind, relevant to the subject and no spamming. Thanks.

You can use these tags:
<a href="" title=""> <abbr title=""> <acronym title=""> <b> <blockquote cite=""> <cite> <code> <del datetime=""> <em> <i> <q cite=""> <strike> <strong>

This blog is using Gravatar weblog. To use your own avatar, register at: Gravatar.