The Cartoon Medley (Tabs)

23 December 2010 8 comments
Ducktales
   E                            x2  Esus4 E         Esus4 E
E|--------------------------------|--------------------------------|
B|--------------------------------|--------------------------------|
G|--------------------------------|-2-----1---------2-----1--------|
D|-----2-------2-------2-------2--|-2---2-2-----2---2---2-2-----2--|
A|--------------------------------|--------------------------------|
E|-0-------0-------0-----0---0----|-0-------0-------0-----0---0----|

   E                                Asus4 A         Asus4 A
E|--------------------------------|--------------------------------|
B|-----0-------0-------0-------0--|-3-----2---------3-----2--------|
G|-----1-------1-------1-------1--|-2---2-2-----2---2---2-2-----2--|
D|-----2-------2-------2-------2--|-2-----2---------2-----2--------|
A|--------------------------------|-0-------0-------0-----0---0----|
E|-0-------0-------0-----0---0----|--------------------------------|

   F#m             B                F#m             B
E|--------------------------------|--------------------------------|
B|-----2-------2-------4-------4--|-----2-------2-------4-------4--|
G|-----2-------2-------4-------4--|-----2-------2-------4-------4--|
D|-----4-------4-------4-------4--|-----4-------4-------4-------4--|
A|-----------------2-----2---2----|-----------------2-----2---2----|
E|-2-------2----------------------|-2-------2----------------------|

   E (DUCKTALES!)                   C               D            x2
E|-----0-------0-------0-------0--|-----0-------0-------2-------2--|
B|-----0-------0-------0-------0--|-----1-------1-------3-------3--|
G|-----1-------1-------1-------1--|-----0-------0-------2-------2--|
D|-----2-------2-------2-------2--|-----------------0-------0------|
A|--------------------------------|-3-------3----------------------|
E|-0-------0-------0-----0---0----|--------------------------------|

Teenage Mutant Ninja Turtles
   C                                D#
E|--------------------------------|--------------------------------|
B|--------------------------------|--------------------------------|
G|--------------------------------|--------------------------------|
D|-5---7---5---7---5---7-5---5-7--|-8---10--8---10--8--10-8---8-10-|
A|-3---3---3---3---3---3-3---3-3--|-6---6---6---6---6---6-6---6-6--|
E|--------------------------------|--------------------------------|

   F               G#               C                  (it's time for...)
E|-----1-------1-------4-------4--|--------------------------------|
B|-----1-------1-------4-------4--|--------------------------------|
G|-----2-------2-------5-------5--|-5-5-5-5-3---5~------5---4---5--|
D|-----3-------3-------6-------6--|-5-5-5-5-3---5~------5---5---5--|
A|--------------------------------|-3-3-3-3-1---3~------3---3---3--|
E|-1-------1-------4-----4---4----|--------------------------------|

Animaniacs
   F                               F               C
E|-------------------------------|---------------------------------|
B|---1---1---1---1---1---1---1---|---1---1---1---1---1---1---1---1-|
G|---2---2---2---2---2---2---2---|---2---2---2---2---0---0---0---0-|
D|---3---3---3---3---3---3---3---|---3---3---3---3---2---2---2---2-|
A|-----3-------3-------3-------3-|-----3-------3---3-------3-------|
E|-1-------1-------1-------1-----|-1-------1-----------3-------3---|

   F        F/D#    F/D    Bb/D    C               F       E
E|---1---1---1---1---1---1---3---|---------------------------------|
B|---1---1---1---1---1---1---3---|---1---1---1---1---1---1---0---0-|
G|---2---2---2---2---2---2---3---|---0---0---0---0---2---2---1---1-|
D|-3---3---1---1---0---0---------|---2---2---2---2---3---3---2---2-|
A|-------------------------5---5-|-3-------3-----------3-------2---|
E|-------------------------------|-----3-------3---1-------0-------|

Inspector Gadget
   Am                  B7      E        Am                 A#dim
E|-------5---------5-------2-------0--|-------5--------5-------------|
B|-------5---------5-------0-------0--|-------5--------5-----------9~|
G|-------5---------5-------2-------1--|-------5--------5-------7-----|
D|---------------------1-------0------|----------------7---6---------|
A|----------5h7------------2----------|----------5h7-----------------|
E|-5--h7-8---------8---------------0--|-5--h7-8------------6---------|

   Am                  B7      E        Am          F
E|-------5---------5-------2-------0--|------------------------------|
B|-------5---------5-------0-------0--|------------------------------|
G|-------5---------5-------2-------1--|------------------------------|
D|---------------------1-------0------|------------------------------|
A|----------5h7------------2----------|------------------------------|
E|-5--h7-8---------8---------------0--|-5---4-3---2-1~---------------|

Ghostbusters
   C             Bb      F        C               Bb      F         x4
E|---------0--------------------|------------------------------------|
B|-----1-1-1---1-3-------1------|-----1-1-1-1-1-1-----3-------1------|
G|-0---0-0-----0-----3-------2--|-0---0-0-0-0-0-0-3-------3-------2--|
D|-2---2------------------------|-2---2---2---2----------------------|
A|-3-------------1--------------|-3---------------1------------------|
E|-----------------------1------|-------------------------1----------|

Digimon
   C                                                Bb             x2
E|--------------------------------|---------------------------------|
B|--------------------------------|-----------------3---3---x-x-x-x-|
G|--------------------------------|-----------------3---3---x-x-x-x-|
D|-----5---4-----------5---4---5--|-----5---4---5---3---3---x-x-x-x-|
A|-3---3---3-------3-3-3---3---3--|-3-3-3---3---3---1---1---x-x-x-x-|
E|--------------------------------|---------------------------------|

Darkwing Duck
   Gm              A       D7    x2  Cm              D7
E|-----3-------3-------------------|---------------------------------|
B|-----3-------3-------5-------7---|-----4-------4-------7-------7---|
G|---3---3---3---3-----6-------5---|-----5-------5-------5-------5---|
D|-------------------7---7---7---7-|---5---5---5---5---7---7---7---7-|
A|-------------------------5-------|-3-------3-------5-------5-------|
E|-3-------3-------5---------------|---------------------------------|

   Gm    F Gm  D#7     D      x2
E|---3---1-3-------------------|
B|---3---1-3-----8---8---7---7-|
G|---3---2-3-----6---6---7---7-|
D|---5---3-5-----8---8---7---7-|
A|-------3-5---6---6---5---5---|
E|-3-----1-3-------------------|

ThunderCats
   Gm            F   D#      Bb      (G/B)   (Play each chord until
E|-3-3-3-3-3-3-3-1-|-6-6-6-6-1-1-1-1--------|   chord change.)
B|-3-3-3-3-3-3-3-1-|-8-8-8-8-3-3-3-3---0----|
G|-3-3-3-3-3-3-3-2-|-8-8-8-8-3-3-3-3---0----|
D|-5-5-5-5-5-5-5-3-|-8-8-8-8-3-3-3-3---0----|
A|-5-5-5-5-5-5-5-3-|-6-6-6-6-1-1-1-1---2----|
E|-3-3-3-3-3-3-3-1-|------------------------|

Trasdockorna
   C       Am      Dm  G   C        C       Am      Dm
E|---0---0---0---0---1---3---0-0--|---0---0---0---0---1---1---3---3-|
B|---1---1---1---1---3---3---1-1--|---1---1---1---1---3---3---3---3-|
G|---0---0---2---2---2---0---0-0--|---0---0---2---2---2---2---0---0-|
D|-----------------0--------------|-----------------0---0-----------|
A|-3---3---0---0-----------3------|-3---3---0---0-------------------|
E|---------------------3----------|-------------------------3---3---|

   F       C       Dm      C         G       Em      Am  D   G 
E|---1-x-1---0-x-0---1-x-1---0-x-0-|---3-x-3---0-x-0---0---2--------|
B|---1-x-1---1-x-1---3-x-3---1-x-1-|---3-x-3---0-x-0---1---3-3--3-3-|
G|---2-x-2---0-x-0---2-x-2---0-x-0-|---0-x-0---0-x-0---2---2-0--0-0-|
D|-----x-------x---0---x-------x---|-----x-------x-------0---0--0-0-|
A|-----x---3---x-------x---3---x---|-----x-------x---0--------------|
E|-1---x-------x-------x-------x---|-3---x---0---x-----------3------|

Talespin
   C      D      G      Em     Am      G/B      C  D  G
E|-0---0--2-2-2--3---3--0-----|-0------3--------0--2--3---------|
B|-1---1--3-3-3--3---3--0-0-0-|-1-1-1--3--3-3-3-1--3--3---3-3---|
G|-0---0--2-2-2--0---0--0-0-0-|-2-2-2--0--0-0-0-0--2--0---0-0---|
D|-2---2--0-0-0--0---0--2-2-2-|-2-2-2--0--0-0-0-2--0--0---0-0---|
A|-3-------------2---2--2-----|-0------2--------3-----2---------|
E|---------------3------0-----|-----------------------3---------|

The Addams Family
   G       Am      D       G      x2
E|---3-x-3---0-x-0---2-x-2---3-x-3-|
B|---3-x-3---1-x-1---3-x-3---3-x-3-|
G|---0-x-0---2-x-2---2-x-2---0-x-0-|
D|-----x-------x---0---x-------x---|
A|-----x---0---x-------x-------x---|
E|-3---x-------x-------x---3---x---|

Bamse
   G EmAm  D   G   C   G   1: Am  D  2: AmD G   <-- this part
E|--3-0-0-0-2-2-3-3-0-0-3-3-|--0-0-22-|--0-2---3--| uses ending 1
B|--3-0-1-1-3-3-3-3-1-1-3-3-|--1-1-33-|--1-3---3--| first, then
G|--0-0-2-2-2-2-0-0-0-0-0-0-|--2-2-23-|--2-2--0-0-| ending 2 the
D|-------2-0---------2------|---2-0---|---0-------| second time.
A|-----0-----0---2-3-----2--|-0-------|-0---------|
E|-3-0---------3-------3----|---------|-----3-----|

Scooby Doo
   A               Bm                E               A             x2
E|-----0-------0-------2-------2---|-----0-------0-------0-----------|
B|-----2-------2-------3-------4---|-----0-------0-------2-----------|
G|---2---2---2---2---4---4---4---4-|---1---1---1---1---2---2---------|
D|---------------------------------|---------------------------------|
A|-0-------0-------2-------2-------|-----------------0---------------|
E|---------------------------------|-0-------0---------------0-2-5-2-|

The Smurfs
   D   D/F# Em G  x3 G7       D
E|-----------------|-----------------|
B|---7---7---8---5-|---5---5---7-7-7-|
G|---7---7---9---6-|---6---6---7-7-7-|
D|---7---7---9---7-|---5---5---7-7-7-|
A|-5---9---7-------|---------5-------|
E|-------------5---|-5---5-----------|

Winnie the Pooh
   E       A       D      G   G/F#   Em       Cmaj7  D       E
E|----0--0----0--0----2-2----------|-0---0---0---0---2---2-----------|
B|----0--0----2--2---33-3-0---0----|--0---0---0---0---3---3--0-0-0-0-|
G|----1-1-1--2--2-2-2--2-2-0---0---|---0---0---0---0---2---2-1-1-1-1-|
D|---2------2------0--------0---0--|----2---2---2---20--0---02-2-2-2-|
A|--2------0-----------------------|---------3---------------2-2-2-2-|
E|-0----------------------3--32--2-|-0-----------------------0-0-0-0-|

   A     Dmaj7  E       D E        A     Dmaj7  E       D   E   A    C
E|---0------2------0--0---2---0--|---0-------------0--0---2---0--------|
B|---2-22--22-2---00--0---3---0--|---2-22--2p0----00--0---3---0------1-|
G|---2-22-2-2--2-1-1--1--2-2-1-1-|---2-22-2---2--1-1--1--2-2-1-1-----0-|
D|---2-220-----------2-20--------|---2-220-----------2-20-------222222-|
A|-0-----------------------------|-0----------------------------000003-|
E|--------------0-----------0----|--------------0-----------0----------|

Denver
   Am        G    x3 Am  G   A (pal dino!)
E|-----------------|------------|
B|-----------------|---------2--|
G|-----------0-----|-2---0---2--|
D|-2-2-2-2-2-0-----|-2---0---2--|
A|-0-0-0-0-0-2-----|-0---2---0--|
E|-----------3-3-3-|-----3------|

   D         A       G     D       A     D   x2 A (2nd time)  D   C
E|---2-------0---------3-3-2---------0---2-2--|-0-------------2---0-|
B|---3---3-3-2-2-2-2---3-3-3-3-3-----2---3-3--|-2-------------3---1-|
G|---2---2-2-2-2-2-2---0-0-2-2-2-2---2---2-2--|-2-------------2---0-|
D|-0-----0-0-2-2-2-2-------0-0-0-0---2---0-0--|-2--2-2-2-2-2--0---2-|
A|-----------0---------------------0----------|-0--0-0-0-0-0------3-|
E|-------------------3------------------------|---------------------|

Dexter's Laboratorium
   Cm      F   D
E|-3---3---1---2---2----|
B|--4---4---1---3---3---|
G|---5---5---2---2---2--|
D|----5---5---30--0---0-|
A|-3--------------------|
E|---------1------------|

BraveStarr
   Gm                           x4
E|-3-----3---3-3---3-3---3---3-3-|
B|-3-----3---3-3---3-3---3---3-3-|
G|-3-----3---3-3---3-3---3---3-3-|
D|-------------------------------|
A|-------------------------------|
E|-3-----3---3-3---3-3---3---3-3-|

Rescue Rangers
   Gm                                Cm            F     D/F#
E|-3-----3-----3---3-----3-----3---|-3---3---3-----1-1---2-----2---|
B|-3-----3-----3---3-----3-----3---|-4---4---4-----1-1---3-----3---|
G|-3-----3-----3---3-----3-----3---|-5---5---5-----2-2---2-----2---|
D|---------------------------------|-------------------------------|
A|---------------------------------|-3---3-3-3-3-3-----------------|
E|-3---3-3---3-3-3-3---3-3---3-3-3-|---------------1-1---2---2-2-2-|

   Gm                                Cm              F   
E|-3-----3-----3---3-----3-----3---|-3---3---3---3---1---1---1---1-1-|
B|-3-----3-----3---3-----3-----3---|-4---4---4---4---1---1---1---1-1-|
G|-3-----3-----3---3-----3-----3---|-5---5---5---5---2---2---2---2-2-|
D|---------------------------------|---------------------------------|
A|---------------------------------|-3-3-3-3-3-3-3-3-----------------|
E|-3-3-3-3-3-3-3-3-3-3-3-3-3-3-3-3-|-----------------1-1-1-1-1-1-1-1-|

  Bbsus4 Bb        Bbsus4 Bb            Gsus4           G (chi-chi-chi!)
E|-1-----1---------1------1-----------|-3-----3---------3-------|
B|-4-----3---3-3-3-4------3---3-3-3-3-|-3-----3---3-3-3-3-------|
G|-3-----3---3-3-3-3------3---3-3-3-3-|-5-----5---5-5-5-4-------|
D|-3-----3---3-3-3-3------3---3-3-3-3-|-5-----5---5-5-5-5-------|
A|-1-----1---------1------1-----------|-5-----5---------5-------|
E|------------------------------------|-3-----3---------3-------|

   C             Bb
E|-3-------3-----1-----------------| <-- Twice
B|-5-------5---5-3---3-3-3-3-3-3-3-|
G|-5-------5---5-3---3-3-3-3-3-3-3-|
D|-5-------5---5-3---3-3-3-3-3-3-3-|
A|-3-------3---3-1---1-1-1-1-1-1-1-|
E|---------------------------------|

   Fm                      Fm/G      Bb
E|-1-------1-----1---------1---1---|-1-1---1---1---1------|
B|-1-------1-----1---1-1-1-1---1---|-3-3---3---3---3------|
G|-1-----1-1-----1---1-1-1-1---1---|-3-3---3---3---3------|
D|-3-----3-3-----3---3-3-3-3---3---|-3-3---3---3---3------|
A|-3-----3-3-----3---3-3-3-3---3---|-1-1---1---1---1------|
E|-1-------1-----1---------3---3---|----------------------|

Tiny Toons Adventures
   G#
E|-4---x-x-------------------------4---|
B|-4---x-x-------------------------4---|
G|-5---x-x---8-108-8-6-5-8---8-----5---|
D|-6---x-x-----------------8---6---6---|
A|-6---x-x---6-8-6-6-4-3-6---6-----6---|
E|-4---x-x-----------------6---4---4---|

   D#  G#  D   G     C   G   C   G      C   F     F/G G#  G   C
E|----------2-2--3-|------------------|-0-------------4---3---0-|
B|--8-8-4-4-3-3--3-|--5-5-3-3-5-5-3-3-|-1-------------4---3---1-|
G|--8-8-5-5-2-2--0-|--5-5-4-4-5-5-4-4-|-0-------------5---4---0-|
D|--8-8-6-60-0---0-|--5-5-5-5-5-5-5-5-|-2-----3-3-3-3-6---5---2-|
A|-6-6-------------|-3---5---320-5----|-3-----3-3-3-3-6---5---3-|
E|-----4-4-----3---|---3---3----3--3--|-----0-1-0-1-3-4---3-----|

Gummi Bears                      Chorus:
   C   C/E F   C/E F   C/E F   G  x2  C F  Dm G  C Am Dm G  C F  Dm G  C
E|---0---0---1---0---1---0---1---3--|-0-1--1--3--0-0--1--3--0-1--1--3--0-|
B|---1---1---1---1---1---1---1---3--|-1-1--3--3--1-1--3--3--1-1--3--3--1-|
G|--0-0-0-0-2-2-0-0-2-2-0-0-2-2-0-0-|-0-2--2--0--0-2--2--0--0-2--2--0--0-|
D|----------------------------------|-2-3--0--0--2-2--0--0--2-3--0--0--2-|
A|-3--------------------------------|-3-3-----2--3-0-----2--3-3-----2--3-|
E|-----0---1---0---1---0---1---3----|---1-----3----------3----1-----3----|

The Moomins
   C <-repeat forever Am      F
E|---0---0---0---0--|---0---0---1---1--|
B|---1---1---1---1--|---1---1---1---1--|
G|--0-0-0-0-0-0-0-0-|--2-2-2-2-2-2-2-2-|
D|------------------|------------------|
A|-3-------3--------|-0-----------3----|
E|-----3-------3----|-----0---1--------|

Sonic the Hedgehog
   Cm              D7      G     <-- Repeat
E|-----------------2-----2---------| 4 times
B|-----------------1-----1---------|
G|-5-----5-----5---2-2-2-2-0-----0-|
D|-5-5-5-5-5-5-5-5-0-0-0-0-0-----0-|
A|-3-3-3-3-3-3-3-3---------2-2-2-2-|
E|-------------------------3-3-3-3-|

   Ab        Eb    Ab        Eb       Ab        Eb  Bb  C
E|-4---4-----6---6-4---4-----6----6-|-4---4-----6-6-6-6-0------|
B|-4---4-----8---8-4---4-----8----8-|-4---4-----8-8-6-6-1------|
G|-5---5-5-5-8---8-5---5-5-5-8----8-|-5---5-5-5-8-8-7-7-0------|
D|-6---6-6-6-8---8-6---6-6-6-8----8-|-6---6-6-6-8-8-8-8-2------|
A|-6---6-6-6-6---6-6---6-6-6-6----6-|-6---6-6-6-6-6-8-8-3------|
E|-4---4-----------4---4------------|-4---4---------6-6--------|

My Little Pony
   C  G/B  Am G    F   G   C       x2 (But double F and G
E|---0---3---0---3---1---3---0------|  second time.)
B|---1---3---1---3---1---3---1--1-1-|
G|--0---0-0-2---0-0-2-2-0-0-0-0-0-0-|
D|----------------------------------|
A|-3--2----0---------------3---3----|
E|------------3----1---3---------3--|

The Flintstones
   F       Gm      F/A     Bb        Gm      C       F         D#
E|---1-x-1---3-x-3---1-x-1---1-x-1-|---3-x-3---3-x-3---1-x-1--------|
B|---1-x-1---3-x-3---1-x-1---3-x-3-|---3-x-3---5-x-5---1-x-1---s8~--|
G|---2-x-2---3-x-3---2-x-2---3-x-3-|---3-x-3---5-x-5---2-x-2---s8~--|
D|-----x-------x-------x-------x---|-----x-------x-------x-----s8~--|
A|-----x-------x---0---x---1---x---|-----x---3---x-------x-----s6~--|
E|-1---x---3---x-------x-------x---|-3---x-------x---1---x---1------|

   F       Gm      F/A     Bb        Gm      C       F
E|-----1-------3-------1-------1---|-----3-------3-------1-------1---|
B|-----1-------3-------1-------3---|-----3-------5-------1-------1---|
G|---2---2---3---3---2---2---3---3-|---3---3---5---5---2---2---2---2-|
D|---------------------------------|---------------------------------|
A|-----------------0-------1-------|---------3-----------------------|
E|-1-------3-----------------------|-3---------------1-------1-------|

Transformers
   Gm              G#/G   Gm      Cm F  Bb Eb Cm D7  Gm7 Gm
E|-3---3---3---3----4-4-|-3---3---3--1--1--6--3--5-------3----|
B|--3---3---3---3---4-4-|--3---3---4--1--3--8--5--7--6----3---|
G|---3---3---3---3--5-5-|---3---3---5--2--3--8--5--5--3----5--|
D|----5---5---5---5-----|----5---5------------------7--5----5-|
A|----------------------|---------3-----1--6--3--5------5-----|
E|-3---3---3---3---3----|-3---3------1---------------3---3----|

Doctor Snuggles
   C                 Dm      G
E|-----------------|-1-1-1-1-3-3-3-3-|
B|-1-1-1-1-1-1-1-1-|-3-3-3-3-3-3-3-3-|
G|-0-0-0-0-0-0-0-0-|-2-2-2-2-0-0-0-0-|
D|-2-2-2-2-2-2-2-2-|-0-0-0-0---------|
A|-3-3-3-3-3-3-3-3-|-----------------|
E|-----------------|---------3-3-3-3-|

   C                          Dm          G          <-- Repeat, but
E|----0-----0-----0-----0---|----1-----1-----3-----3---| half the
B|----1-----1-----1-----1---|----3-----3-----3-----3---| Dm and G the
G|---0--0--0--0--0--0--0--0-|---2--2--2--2--0--0--0--0-| second time.
D|--------------------------|-0-----0------------------| Finish with
A|-3-----3-----3-----3------|--------------------------| C again.
E|--------------------------|-------------3-----3------|

Donald Duck
   A                           A           E
E|------------------0------0-|--------------------------|
B|---2--2--2--2--2--2--2h3-2-|---2--2--2--2--0--0--0--0-|
G|---2--2--2--2--2-----2h4---|---2--2--2--2--1--1--1--1-|
D|---------------------------|--------------------------|
A|-0-----------0-----0-------|-0-----2-----2------------|
E|----4--2--0-----0------0---|----0-----0-----4--2--0---|

   E           A              B              E
E|--------------------------|--------------------------|
B|---0--0--0--0--2--2--2--2-|---4--4--4--4--0--0--0--0-|
G|---1--1--1--1--2--2--2--2-|---4--4--4--4--1--1--1--1-|
D|--------------------------|----1---------------------|
A|-2--2--------0------------|-2--------2--------2------|
E|-------0--0-----4--2--0---|-------2-----0--4-----0---|

   Bm            E     Bm/E      D      Aadd9  Dm
E|-----------------------------|----2--2----------1--1--1--1-|
B|----3--3---2--2--0--0---3--2-|----3--3---2--2---3--3--3--3-|
G|----4--4---4--4--1--1---4--4-|----2--2---4--4---2--2--2--2-|
D|----4--4---4--4--2--2---4--4-|-0---------2--20---0---------|
A|-2------2--------------------|--------0----------------0---|
E|---------------0-----0-------|----------------------1------|

   F#m/E D/B   A     B7       D/B F#m/B F#m/B E      A (but Donald Duck!)
E|----2--2-------------------|-2--2-----2----------------|
B|----2--3--------2--3-------|-3--2-----2-----0------2---|
G|----2--2--------2--1-------|-2--2-----2-----1------2---|
D|----------------2--3-------|-----------------------2---|
A|-------2-----0-----1-------|-2--2-----2------------0---|
E|-0-------------------------|----------------0--2h4-----|

8 comments »

  • Clara Jönsson said:

    UNDERBART! Äntligen, när kommer resten?????? :) snart hoppas jag. hur kommer det sig du ger ut dom nu förresten? :)

  • FreddeGredde (author) said:

    Clara: Någon betalade för tiden det tar att skriva ner det! ;) Resten kommer väl kanske sen nån dag..

  • Александр said:

    Добрый день!)Очень понравилась ваша обработка!У вас случайно нет GTP файлов песен?Буду очень признателен)

  • Kion Sutton said:

    Thank you so much for the tabs. You are favorite guitarist! :)

  • Jeremy said:

    I’m in love with all of your songs :x Keep up with your dream :) I know someday you’ll be famous :x Crazy fan of U xD <3 <3

  • Michael Elady said:

    Wow you are simply amazing!
    I’ve been listening to your amazing medleys for quite some time and I’ve always wanted to learn how to play them.
    I didn’t see any link on youtube for tabs. Lucky for me I bumped into your website just now to find this!
    You sir have made my day! Thank you and keep creating these amazing songs and medleys!

  • Mark said:

    Hey you really inspire me to do my best in what I love! You play very skillfully and I love your music! Thanks for the tabs and keep doing what you do!

  • Lucas Beirer said:

    Hej Freddie , jag är ett stort fan och jag älskar din musik , ville bara säga , fortsätt med det . (Sorry om översättningen är dålig , jag använder Google Translate . )


Leave a comment!

Comment below, or get a trackback url to use on your own site. You can also subscribe to the comments with RSS.

Please be kind, relevant to the subject and no spamming. Thanks.

You can use these tags:
<a href="" title=""> <abbr title=""> <acronym title=""> <b> <blockquote cite=""> <cite> <code> <del datetime=""> <em> <i> <q cite=""> <strike> <strong>

This blog is using Gravatar weblog. To use your own avatar, register at: Gravatar.